ISO-10303-21;
HEADER;
FILE_DESCRIPTION (( 'STEP AP214' ),
    '1' );
FILE_NAME ('Pin_12-7mm_9104-07086-02104.STEP',
    '2011-04-14T21:37:52',
    ( '' ),
    ( '' ),
    'SwSTEP 2.0',
    'SolidWorks 2010',
    '' );
FILE_SCHEMA (( 'AUTOMOTIVE_DESIGN' ));
ENDSEC;

DATA;
#1 = AXIS2_PLACEMENT_3D ( 'NONE', #161, #108, #157 ) ;
#2 = EDGE_CURVE ( 'NONE', #149, #149, #234, .T. ) ;
#3 = AXIS2_PLACEMENT_3D ( 'NONE', #279, #274, #277 ) ;
#4 = EDGE_CURVE ( 'NONE', #148, #148, #249, .T. ) ;
#5 = AXIS2_PLACEMENT_3D ( 'NONE', #74, #75, #73 ) ;
#6 = AXIS2_PLACEMENT_3D ( 'NONE', #122, #125, #86 ) ;
#7 = AXIS2_PLACEMENT_3D ( 'NONE', #70, #82, #76 ) ;
#8 = PRODUCT_RELATED_PRODUCT_CATEGORY ( 'part', '', ( #280 ) ) ;
#9 = EDGE_CURVE ( 'NONE', #92, #92, #195, .T. ) ;
#10 = AXIS2_PLACEMENT_3D ( 'NONE', #67, #132, #118 ) ;
#11 = AXIS2_PLACEMENT_3D ( 'NONE', #164, #116, #61 ) ;
#12 = PRESENTATION_LAYER_ASSIGNMENT (  '', '', ( #204 ) ) ;
#13 = AXIS2_PLACEMENT_3D ( 'NONE', #162, #62, #63 ) ;
#14 = AXIS2_PLACEMENT_3D ( 'NONE', #131, #135, #126 ) ;
#15 = EDGE_CURVE ( 'NONE', #143, #143, #184, .T. ) ;
#16 = AXIS2_PLACEMENT_3D ( 'NONE', #138, #112, #114 ) ;
#17 = EDGE_CURVE ( 'NONE', #97, #97, #177, .T. ) ;
#18 = AXIS2_PLACEMENT_3D ( 'NONE', #160, #158, #163 ) ;
#19 = AXIS2_PLACEMENT_3D ( 'NONE', #139, #137, #128 ) ;
#20 = MECHANICAL_DESIGN_GEOMETRIC_PRESENTATION_REPRESENTATION (  '', ( #204 ), #259 ) ;
#21 = PRESENTATION_LAYER_ASSIGNMENT (  '', '', ( #262 ) ) ;
#22 = AXIS2_PLACEMENT_3D ( 'NONE', #69, #105, #55 ) ;
#23 = EDGE_CURVE ( 'NONE', #99, #99, #254, .T. ) ;
#24 = AXIS2_PLACEMENT_3D ( 'NONE', #66, #110, #119 ) ;
#25 = AXIS2_PLACEMENT_3D ( 'NONE', #80, #68, #109 ) ;
#26 = EDGE_CURVE ( 'NONE', #101, #101, #251, .T. ) ;
#27 = AXIS2_PLACEMENT_3D ( 'NONE', #65, #154, #121 ) ;
#28 = AXIS2_PLACEMENT_3D ( 'NONE', #159, #166, #165 ) ;
#29 = EDGE_CURVE ( 'NONE', #145, #145, #256, .T. ) ;
#30 = AXIS2_PLACEMENT_3D ( 'NONE', #79, #130, #136 ) ;
#31 = AXIS2_PLACEMENT_3D ( 'NONE', #88, #89, #115 ) ;
#32 = AXIS2_PLACEMENT_3D ( 'NONE', #64, #140, #133 ) ;
#33 = EDGE_CURVE ( 'NONE', #144, #144, #255, .T. ) ;
#34 = AXIS2_PLACEMENT_3D ( 'NONE', #85, #83, #81 ) ;
#35 = AXIS2_PLACEMENT_3D ( 'NONE', #129, #124, #113 ) ;
#36 = AXIS2_PLACEMENT_3D ( 'NONE', #117, #111, #77 ) ;
#37 = MECHANICAL_DESIGN_GEOMETRIC_PRESENTATION_REPRESENTATION (  '', ( #262 ), #270 ) ;
#38 = PRODUCT_DEFINITION_FORMATION_WITH_SPECIFIED_SOURCE ( 'ANY', '', #280, .NOT_KNOWN. ) ;
#39 = AXIS2_PLACEMENT_3D ( 'NONE', #107, #134, #127 ) ;
#40 = PRODUCT_DEFINITION ( 'UNKNOWN', '', #38, #168 ) ;
#41 = EDGE_CURVE ( 'NONE', #155, #155, #242, .T. ) ;
#42 = EDGE_CURVE ( 'NONE', #146, #146, #258, .T. ) ;
#43 = ADVANCED_FACE ( 'NONE', ( #237, #206 ), #190, .T. ) ;
#44 = ADVANCED_FACE ( 'NONE', ( #248, #180 ), #228, .T. ) ;
#45 = ADVANCED_FACE ( 'NONE', ( #187, #207 ), #174, .T. ) ;
#46 = ADVANCED_FACE ( 'NONE', ( #205, #268 ), #87, .T. ) ;
#47 = ADVANCED_FACE ( 'NONE', ( #226, #186 ), #261, .T. ) ;
#48 = ADVANCED_FACE ( 'NONE', ( #225 ), #84, .T. ) ;
#49 = ADVANCED_FACE ( 'NONE', ( #185, #198 ), #178, .T. ) ;
#50 = ADVANCED_FACE ( 'NONE', ( #191 ), #120, .T. ) ;
#51 = ADVANCED_FACE ( 'NONE', ( #176, #189 ), #210, .F. ) ;
#52 = ADVANCED_FACE ( 'NONE', ( #200, #266 ), #219, .T. ) ;
#53 = ADVANCED_FACE ( 'NONE', ( #199, #222 ), #71, .T. ) ;
#54 = ADVANCED_FACE ( 'NONE', ( #263, #265 ), #221, .T. ) ;
#55 = DIRECTION ( 'NONE',  ( 0.0000000000000000000, 0.0000000000000000000, 1.000000000000000000 ) ) ;
#56 =( NAMED_UNIT ( * ) PLANE_ANGLE_UNIT ( ) SI_UNIT ( $, .RADIAN. ) );
#57 =( LENGTH_UNIT ( ) NAMED_UNIT ( * ) SI_UNIT ( .MILLI., .METRE. ) );
#58 =( LENGTH_UNIT ( ) NAMED_UNIT ( * ) SI_UNIT ( .MILLI., .METRE. ) );
#59 = FILL_AREA_STYLE_COLOUR ( '', #182 ) ;
#60 =( NAMED_UNIT ( * ) SI_UNIT ( $, .STERADIAN. ) SOLID_ANGLE_UNIT ( ) );
#61 = DIRECTION ( 'NONE',  ( 0.0000000000000000000, 0.0000000000000000000, -1.000000000000000000 ) ) ;
#62 = DIRECTION ( 'NONE',  ( 0.0000000000000000000, 1.000000000000000000, 0.0000000000000000000 ) ) ;
#63 = DIRECTION ( 'NONE',  ( 0.0000000000000000000, 0.0000000000000000000, 1.000000000000000000 ) ) ;
#64 = CARTESIAN_POINT ( 'NONE',  ( 0.0000000000000000000, -9.099999999999999600, 0.0000000000000000000 ) ) ;
#65 = CARTESIAN_POINT ( 'NONE',  ( -7.245000000000000100, 0.0000000000000000000, -5.059156459983700000E-014 ) ) ;
#66 = CARTESIAN_POINT ( 'NONE',  ( 0.0000000000000000000, -5.861512347068553700, 0.0000000000000000000 ) ) ;
#67 = CARTESIAN_POINT ( 'NONE',  ( 0.0000000000000000000, 0.0000000000000000000, 0.0000000000000000000 ) ) ;
#68 = DIRECTION ( 'NONE',  ( -0.0000000000000000000, -1.000000000000000000, -0.0000000000000000000 ) ) ;
#69 = CARTESIAN_POINT ( 'NONE',  ( 0.0000000000000000000, 19.29999999999999700, 0.0000000000000000000 ) ) ;
#70 = CARTESIAN_POINT ( 'NONE',  ( 0.0000000000000000000, 3.140000000000000600, 0.0000000000000000000 ) ) ;
#71 = PLANE ( 'NONE',  #27 ) ;
#72 = SURFACE_STYLE_USAGE ( .BOTH. , #104 ) ;
#73 = DIRECTION ( 'NONE',  ( 0.0000000000000000000, 0.0000000000000000000, -1.000000000000000000 ) ) ;
#74 = CARTESIAN_POINT ( 'NONE',  ( -7.245000000000001000, -9.099999999999999600, -5.059156459983700700E-014 ) ) ;
#75 = DIRECTION ( 'NONE',  ( 0.0000000000000000000, -1.000000000000000000, -0.0000000000000000000 ) ) ;
#76 = DIRECTION ( 'NONE',  ( 0.0000000000000000000, 0.0000000000000000000, 1.000000000000000000 ) ) ;
#77 = DIRECTION ( 'NONE',  ( 0.0000000000000000000, -0.0000000000000000000, 1.000000000000000000 ) ) ;
#78 = FILL_AREA_STYLE_COLOUR ( '', #257 ) ;
#79 = CARTESIAN_POINT ( 'NONE',  ( 0.0000000000000000000, -8.441820693123828400, 0.0000000000000000000 ) ) ;
#80 = CARTESIAN_POINT ( 'NONE',  ( 0.0000000000000000000, 19.02999999999999800, 0.0000000000000000000 ) ) ;
#81 = DIRECTION ( 'NONE',  ( 0.0000000000000000000, -0.0000000000000000000, 1.000000000000000000 ) ) ;
#82 = DIRECTION ( 'NONE',  ( 0.0000000000000000000, 1.000000000000000000, 0.0000000000000000000 ) ) ;
#83 = DIRECTION ( 'NONE',  ( 0.0000000000000000000, 1.000000000000000000, 0.0000000000000000000 ) ) ;
#84 = PLANE ( 'NONE',  #36 ) ;
#85 = CARTESIAN_POINT ( 'NONE',  ( -6.350000000000001400, 2.500000000000000000, -4.434181300330780600E-014 ) ) ;
#86 = DIRECTION ( 'NONE',  ( 0.0000000000000000000, 0.0000000000000000000, 1.000000000000000000 ) ) ;
#87 = PLANE ( 'NONE',  #34 ) ;
#88 = CARTESIAN_POINT ( 'NONE',  ( 0.0000000000000000000, -5.861512347068553700, 0.0000000000000000000 ) ) ;
#89 = DIRECTION ( 'NONE',  ( -0.0000000000000000000, -1.000000000000000000, -0.0000000000000000000 ) ) ;
#90 =( NAMED_UNIT ( * ) PLANE_ANGLE_UNIT ( ) SI_UNIT ( $, .RADIAN. ) );
#91 =( NAMED_UNIT ( * ) PLANE_ANGLE_UNIT ( ) SI_UNIT ( $, .RADIAN. ) );
#92 = VERTEX_POINT ( 'NONE', #96 ) ;
#93 = CARTESIAN_POINT ( 'NONE',  ( 0.0000000000000000000, -8.441820693123828400, -7.245000000000000100 ) ) ;
#94 =( NAMED_UNIT ( * ) SI_UNIT ( $, .STERADIAN. ) SOLID_ANGLE_UNIT ( ) );
#95 = SURFACE_STYLE_USAGE ( .BOTH. , #147 ) ;
#96 = CARTESIAN_POINT ( 'NONE',  ( 0.0000000000000000000, 3.140000000000000600, 6.350000000000000500 ) ) ;
#97 = VERTEX_POINT ( 'NONE', #150 ) ;
#98 = CARTESIAN_POINT ( 'NONE',  ( 0.0000000000000000000, 18.76205080756887600, 6.350000000000000500 ) ) ;
#99 = VERTEX_POINT ( 'NONE', #156 ) ;
#100 =( LENGTH_UNIT ( ) NAMED_UNIT ( * ) SI_UNIT ( .MILLI., .METRE. ) );
#101 = VERTEX_POINT ( 'NONE', #98 ) ;
#102 = CARTESIAN_POINT ( 'NONE',  ( 0.0000000000000000000, 20.29999999999999700, 5.039414888939549400 ) ) ;
#103 = CARTESIAN_POINT ( 'NONE',  ( 0.0000000000000000000, 19.79999999999999700, 5.905440292723986900 ) ) ;
#104 = SURFACE_SIDE_STYLE ('',( #201 ) ) ;
#105 = DIRECTION ( 'NONE',  ( 0.0000000000000000000, 1.000000000000000000, 0.0000000000000000000 ) ) ;
#106 =( NAMED_UNIT ( * ) SI_UNIT ( $, .STERADIAN. ) SOLID_ANGLE_UNIT ( ) );
#107 = CARTESIAN_POINT ( 'NONE',  ( 0.0000000000000000000, 18.76205080756887600, 0.0000000000000000000 ) ) ;
#108 = DIRECTION ( 'NONE',  ( -0.0000000000000000000, -1.000000000000000000, -0.0000000000000000000 ) ) ;
#109 = DIRECTION ( 'NONE',  ( 0.0000000000000000000, 0.0000000000000000000, -1.000000000000000000 ) ) ;
#110 = DIRECTION ( 'NONE',  ( -0.0000000000000000000, -1.000000000000000000, -0.0000000000000000000 ) ) ;
#111 = DIRECTION ( 'NONE',  ( 0.0000000000000000000, 1.000000000000000000, 0.0000000000000000000 ) ) ;
#112 = DIRECTION ( 'NONE',  ( 0.0000000000000000000, 1.000000000000000000, 0.0000000000000000000 ) ) ;
#113 = DIRECTION ( 'NONE',  ( 0.0000000000000000000, 0.0000000000000000000, -1.000000000000000000 ) ) ;
#114 = DIRECTION ( 'NONE',  ( 0.0000000000000000000, 0.0000000000000000000, 1.000000000000000000 ) ) ;
#115 = DIRECTION ( 'NONE',  ( 0.0000000000000000000, 0.0000000000000000000, -1.000000000000000000 ) ) ;
#116 = DIRECTION ( 'NONE',  ( -0.0000000000000000000, -1.000000000000000000, -0.0000000000000000000 ) ) ;
#117 = CARTESIAN_POINT ( 'NONE',  ( 0.0000000000000000000, 20.29999999999999700, 0.0000000000000000000 ) ) ;
#118 = DIRECTION ( 'NONE',  ( 0.0000000000000000000, 0.0000000000000000000, -1.000000000000000000 ) ) ;
#119 = DIRECTION ( 'NONE',  ( 0.0000000000000000000, 0.0000000000000000000, -1.000000000000000000 ) ) ;
#120 = PLANE ( 'NONE',  #5 ) ;
#121 = DIRECTION ( 'NONE',  ( 0.0000000000000000000, 0.0000000000000000000, -1.000000000000000000 ) ) ;
#122 = CARTESIAN_POINT ( 'NONE',  ( 0.0000000000000000000, 18.76205080756887600, 0.0000000000000000000 ) ) ;
#123 = FILL_AREA_STYLE ('',( #78 ) ) ;
#124 = DIRECTION ( 'NONE',  ( -0.0000000000000000000, -1.000000000000000000, -0.0000000000000000000 ) ) ;
#125 = DIRECTION ( 'NONE',  ( 0.0000000000000000000, 1.000000000000000000, 0.0000000000000000000 ) ) ;
#126 = DIRECTION ( 'NONE',  ( 0.0000000000000000000, 0.0000000000000000000, 1.000000000000000000 ) ) ;
#127 = DIRECTION ( 'NONE',  ( 0.0000000000000000000, 0.0000000000000000000, 1.000000000000000000 ) ) ;
#128 = DIRECTION ( 'NONE',  ( 0.0000000000000000000, 0.0000000000000000000, -1.000000000000000000 ) ) ;
#129 = CARTESIAN_POINT ( 'NONE',  ( 0.0000000000000000000, -5.861512347068553700, 0.0000000000000000000 ) ) ;
#130 = DIRECTION ( 'NONE',  ( 0.0000000000000000000, 1.000000000000000000, 0.0000000000000000000 ) ) ;
#131 = CARTESIAN_POINT ( 'NONE',  ( 0.0000000000000000000, 19.26205080756887600, 0.0000000000000000000 ) ) ;
#132 = DIRECTION ( 'NONE',  ( -0.0000000000000000000, -1.000000000000000000, -0.0000000000000000000 ) ) ;
#133 = DIRECTION ( 'NONE',  ( 0.0000000000000000000, 0.0000000000000000000, -1.000000000000000000 ) ) ;
#134 = DIRECTION ( 'NONE',  ( -0.0000000000000000000, -1.000000000000000000, -0.0000000000000000000 ) ) ;
#135 = DIRECTION ( 'NONE',  ( 0.0000000000000000000, 1.000000000000000000, 0.0000000000000000000 ) ) ;
#136 = DIRECTION ( 'NONE',  ( 0.0000000000000000000, 0.0000000000000000000, -1.000000000000000000 ) ) ;
#137 = DIRECTION ( 'NONE',  ( -0.0000000000000000000, -1.000000000000000000, -0.0000000000000000000 ) ) ;
#138 = CARTESIAN_POINT ( 'NONE',  ( 0.0000000000000000000, -9.099999999999999600, 0.0000000000000000000 ) ) ;
#139 = CARTESIAN_POINT ( 'NONE',  ( 0.0000000000000000000, 0.0000000000000000000, 0.0000000000000000000 ) ) ;
#140 = DIRECTION ( 'NONE',  ( -0.0000000000000000000, -1.000000000000000000, -0.0000000000000000000 ) ) ;
#141 = CARTESIAN_POINT ( 'NONE',  ( 0.0000000000000000000, 0.0000000000000000000, -7.245000000000000100 ) ) ;
#142 = FILL_AREA_STYLE ('',( #59 ) ) ;
#143 = VERTEX_POINT ( 'NONE', #153 ) ;
#144 = VERTEX_POINT ( 'NONE', #151 ) ;
#145 = VERTEX_POINT ( 'NONE', #93 ) ;
#146 = VERTEX_POINT ( 'NONE', #152 ) ;
#147 = SURFACE_SIDE_STYLE ('',( #227 ) ) ;
#148 = VERTEX_POINT ( 'NONE', #102 ) ;
#149 = VERTEX_POINT ( 'NONE', #103 ) ;
#150 = CARTESIAN_POINT ( 'NONE',  ( 0.0000000000000000000, 2.500000000000000000, 6.990000000000000200 ) ) ;
#151 = CARTESIAN_POINT ( 'NONE',  ( 0.0000000000000000000, 0.0000000000000000000, -7.934999999999999600 ) ) ;
#152 = CARTESIAN_POINT ( 'NONE',  ( 0.0000000000000000000, 19.26205080756887600, 6.216025403784437100 ) ) ;
#153 = CARTESIAN_POINT ( 'NONE',  ( 0.0000000000000000000, 2.500000000000000400, -7.934999999999999600 ) ) ;
#154 = DIRECTION ( 'NONE',  ( 0.0000000000000000000, -1.000000000000000000, -0.0000000000000000000 ) ) ;
#155 = VERTEX_POINT ( 'NONE', #141 ) ;
#156 = CARTESIAN_POINT ( 'NONE',  ( 0.0000000000000000000, -9.099999999999999600, -6.864999999999997500 ) ) ;
#157 = DIRECTION ( 'NONE',  ( 0.0000000000000000000, 0.0000000000000000000, 1.000000000000000000 ) ) ;
#158 = DIRECTION ( 'NONE',  ( 0.0000000000000000000, 1.000000000000000000, 0.0000000000000000000 ) ) ;
#159 = CARTESIAN_POINT ( 'NONE',  ( 0.0000000000000000000, 19.79999999999999700, 0.0000000000000000000 ) ) ;
#160 = CARTESIAN_POINT ( 'NONE',  ( 0.0000000000000000000, 20.29999999999999700, 0.0000000000000000000 ) ) ;
#161 = CARTESIAN_POINT ( 'NONE',  ( 0.0000000000000000000, 2.500000000000000000, 0.0000000000000000000 ) ) ;
#162 = CARTESIAN_POINT ( 'NONE',  ( 0.0000000000000000000, 3.140000000000000600, 0.0000000000000000000 ) ) ;
#163 = DIRECTION ( 'NONE',  ( 0.0000000000000000000, 0.0000000000000000000, 1.000000000000000000 ) ) ;
#164 = CARTESIAN_POINT ( 'NONE',  ( 0.0000000000000000000, 2.500000000000000400, 0.0000000000000000000 ) ) ;
#165 = DIRECTION ( 'NONE',  ( 0.0000000000000000000, 0.0000000000000000000, 1.000000000000000000 ) ) ;
#166 = DIRECTION ( 'NONE',  ( -0.0000000000000000000, -1.000000000000000000, -0.0000000000000000000 ) ) ;
#167 = PRODUCT_DEFINITION_SHAPE ( 'NONE', 'NONE',  #40 ) ;
#168 = PRODUCT_DEFINITION_CONTEXT ( 'detailed design', #273, 'design' ) ;
#169 = UNCERTAINTY_MEASURE_WITH_UNIT (LENGTH_MEASURE( 1.000000000000000100E-005 ), #57, 'distance_accuracy_value', 'NONE');
#170 = MANIFOLD_SOLID_BREP ( 'Chamfer2', #231 ) ;
#171 = UNCERTAINTY_MEASURE_WITH_UNIT (LENGTH_MEASURE( 1.000000000000000100E-005 ), #58, 'distance_accuracy_value', 'NONE');
#172 = ADVANCED_BREP_SHAPE_REPRESENTATION ( 'Pin_12-7mm_9104-07086-02104', ( #170, #3 ), #202 ) ;
#173 = UNCERTAINTY_MEASURE_WITH_UNIT (LENGTH_MEASURE( 1.000000000000000100E-005 ), #100, 'distance_accuracy_value', 'NONE');
#174 = CYLINDRICAL_SURFACE ( 'NONE', #35, 6.350000000000000500 ) ;
#175 = ORIENTED_EDGE ( 'NONE', *, *, #33, .F. ) ;
#176 = FACE_OUTER_BOUND ( 'NONE', #245, .T. ) ;
#177 = CIRCLE ( 'NONE', #1, 6.990000000000000200 ) ;
#178 = CONICAL_SURFACE ( 'NONE', #25, 6.349999999999999600, 0.5235987755983005900 ) ;
#179 = ORIENTED_EDGE ( 'NONE', *, *, #23, .F. ) ;
#180 = FACE_BOUND ( 'NONE', #224, .T. ) ;
#181 = ORIENTED_EDGE ( 'NONE', *, *, #4, .T. ) ;
#182 = COLOUR_RGB ( '',1.000000000000000000, 1.000000000000000000, 1.000000000000000000 ) ;
#183 = ORIENTED_EDGE ( 'NONE', *, *, #33, .T. ) ;
#184 = CIRCLE ( 'NONE', #11, 7.934999999999999600 ) ;
#185 = FACE_OUTER_BOUND ( 'NONE', #240, .T. ) ;
#186 = FACE_OUTER_BOUND ( 'NONE', #241, .T. ) ;
#187 = FACE_OUTER_BOUND ( 'NONE', #235, .T. ) ;
#188 = ORIENTED_EDGE ( 'NONE', *, *, #4, .F. ) ;
#189 = FACE_OUTER_BOUND ( 'NONE', #215, .T. ) ;
#190 = TOROIDAL_SURFACE ( 'NONE', #6, 5.350000000000000500, 1.000000000000000000 ) ;
#191 = FACE_OUTER_BOUND ( 'NONE', #252, .T. ) ;
#192 = ORIENTED_EDGE ( 'NONE', *, *, #41, .T. ) ;
#193 = ORIENTED_EDGE ( 'NONE', *, *, #15, .F. ) ;
#194 = ORIENTED_EDGE ( 'NONE', *, *, #2, .T. ) ;
#195 = CIRCLE ( 'NONE', #13, 6.350000000000000500 ) ;
#196 = ORIENTED_EDGE ( 'NONE', *, *, #17, .F. ) ;
#197 = PRESENTATION_STYLE_ASSIGNMENT (( #72 ) ) ;
#198 = FACE_BOUND ( 'NONE', #247, .T. ) ;
#199 = FACE_OUTER_BOUND ( 'NONE', #229, .T. ) ;
#200 = FACE_OUTER_BOUND ( 'NONE', #223, .T. ) ;
#201 = SURFACE_STYLE_FILL_AREA ( #142 ) ;
#202 =( GEOMETRIC_REPRESENTATION_CONTEXT ( 3 ) GLOBAL_UNCERTAINTY_ASSIGNED_CONTEXT ( ( #169 ) ) GLOBAL_UNIT_ASSIGNED_CONTEXT ( ( #57, #90, #60 ) ) REPRESENTATION_CONTEXT ( 'NONE', 'WORKASPACE' ) );
#203 = ORIENTED_EDGE ( 'NONE', *, *, #9, .F. ) ;
#204 = STYLED_ITEM ( 'NONE', ( #271 ), #170 ) ;
#205 = FACE_BOUND ( 'NONE', #243, .T. ) ;
#206 = FACE_OUTER_BOUND ( 'NONE', #214, .T. ) ;
#207 = FACE_OUTER_BOUND ( 'NONE', #239, .T. ) ;
#208 = EDGE_LOOP ( 'NONE', ( #212 ) ) ;
#209 = ORIENTED_EDGE ( 'NONE', *, *, #29, .T. ) ;
#210 = TOROIDAL_SURFACE ( 'NONE', #7, 6.990000000000000200, 0.6400000000000000100 ) ;
#211 = ORIENTED_EDGE ( 'NONE', *, *, #15, .T. ) ;
#212 = ORIENTED_EDGE ( 'NONE', *, *, #42, .F. ) ;
#213 = EDGE_LOOP ( 'NONE', ( #232 ) ) ;
#214 = EDGE_LOOP ( 'NONE', ( #244 ) ) ;
#215 = EDGE_LOOP ( 'NONE', ( #196 ) ) ;
#216 = EDGE_LOOP ( 'NONE', ( #260 ) ) ;
#217 = EDGE_LOOP ( 'NONE', ( #192 ) ) ;
#218 = EDGE_LOOP ( 'NONE', ( #211 ) ) ;
#219 = TOROIDAL_SURFACE ( 'NONE', #22, 5.039414888939549400, 1.000000000000000000 ) ;
#220 = ORIENTED_EDGE ( 'NONE', *, *, #29, .F. ) ;
#221 = CYLINDRICAL_SURFACE ( 'NONE', #31, 7.245000000000000100 ) ;
#222 = FACE_BOUND ( 'NONE', #216, .T. ) ;
#223 = EDGE_LOOP ( 'NONE', ( #188 ) ) ;
#224 = EDGE_LOOP ( 'NONE', ( #179 ) ) ;
#225 = FACE_OUTER_BOUND ( 'NONE', #238, .T. ) ;
#226 = FACE_OUTER_BOUND ( 'NONE', #218, .T. ) ;
#227 = SURFACE_STYLE_FILL_AREA ( #123 ) ;
#228 = CONICAL_SURFACE ( 'NONE', #16, 6.864999999999997500, 0.5235987755983018100 ) ;
#229 = EDGE_LOOP ( 'NONE', ( #183 ) ) ;
#230 = EDGE_LOOP ( 'NONE', ( #220 ) ) ;
#231 = CLOSED_SHELL ( 'NONE', ( #49, #48, #50, #54, #53, #47, #46, #45, #43, #52, #51, #44 ) ) ;
#232 = ORIENTED_EDGE ( 'NONE', *, *, #2, .F. ) ;
#233 = ORIENTED_EDGE ( 'NONE', *, *, #42, .T. ) ;
#234 = CIRCLE ( 'NONE', #28, 5.905440292723986900 ) ;
#235 = EDGE_LOOP ( 'NONE', ( #250 ) ) ;
#236 = ORIENTED_EDGE ( 'NONE', *, *, #17, .T. ) ;
#237 = FACE_OUTER_BOUND ( 'NONE', #208, .T. ) ;
#238 = EDGE_LOOP ( 'NONE', ( #181 ) ) ;
#239 = EDGE_LOOP ( 'NONE', ( #269 ) ) ;
#240 = EDGE_LOOP ( 'NONE', ( #233 ) ) ;
#241 = EDGE_LOOP ( 'NONE', ( #175 ) ) ;
#242 = CIRCLE ( 'NONE', #19, 7.245000000000000100 ) ;
#243 = EDGE_LOOP ( 'NONE', ( #236 ) ) ;
#244 = ORIENTED_EDGE ( 'NONE', *, *, #26, .F. ) ;
#245 = EDGE_LOOP ( 'NONE', ( #203 ) ) ;
#246 = EDGE_LOOP ( 'NONE', ( #209 ) ) ;
#247 = EDGE_LOOP ( 'NONE', ( #194 ) ) ;
#248 = FACE_OUTER_BOUND ( 'NONE', #230, .T. ) ;
#249 = CIRCLE ( 'NONE', #18, 5.039414888939549400 ) ;
#250 = ORIENTED_EDGE ( 'NONE', *, *, #9, .T. ) ;
#251 = CIRCLE ( 'NONE', #39, 6.350000000000000500 ) ;
#252 = EDGE_LOOP ( 'NONE', ( #267 ) ) ;
#253 = EDGE_LOOP ( 'NONE', ( #193 ) ) ;
#254 = CIRCLE ( 'NONE', #32, 6.864999999999997500 ) ;
#255 = CIRCLE ( 'NONE', #10, 7.934999999999999600 ) ;
#256 = CIRCLE ( 'NONE', #30, 7.245000000000000100 ) ;
#257 = COLOUR_RGB ( '',1.000000000000000000, 1.000000000000000000, 1.000000000000000000 ) ;
#258 = CIRCLE ( 'NONE', #14, 6.216025403784437100 ) ;
#259 =( GEOMETRIC_REPRESENTATION_CONTEXT ( 3 ) GLOBAL_UNCERTAINTY_ASSIGNED_CONTEXT ( ( #173 ) ) GLOBAL_UNIT_ASSIGNED_CONTEXT ( ( #100, #91, #94 ) ) REPRESENTATION_CONTEXT ( 'NONE', 'WORKASPACE' ) );
#260 = ORIENTED_EDGE ( 'NONE', *, *, #41, .F. ) ;
#261 = CYLINDRICAL_SURFACE ( 'NONE', #24, 7.934999999999999600 ) ;
#262 = STYLED_ITEM ( 'NONE', ( #197 ), #172 ) ;
#263 = FACE_OUTER_BOUND ( 'NONE', #246, .T. ) ;
#264 = SHAPE_DEFINITION_REPRESENTATION ( #167, #172 ) ;
#265 = FACE_OUTER_BOUND ( 'NONE', #217, .T. ) ;
#266 = FACE_OUTER_BOUND ( 'NONE', #213, .T. ) ;
#267 = ORIENTED_EDGE ( 'NONE', *, *, #23, .T. ) ;
#268 = FACE_OUTER_BOUND ( 'NONE', #253, .T. ) ;
#269 = ORIENTED_EDGE ( 'NONE', *, *, #26, .T. ) ;
#270 =( GEOMETRIC_REPRESENTATION_CONTEXT ( 3 ) GLOBAL_UNCERTAINTY_ASSIGNED_CONTEXT ( ( #171 ) ) GLOBAL_UNIT_ASSIGNED_CONTEXT ( ( #58, #56, #106 ) ) REPRESENTATION_CONTEXT ( 'NONE', 'WORKASPACE' ) );
#271 = PRESENTATION_STYLE_ASSIGNMENT (( #95 ) ) ;
#272 = APPLICATION_PROTOCOL_DEFINITION ( 'draft international standard', 'automotive_design', 1998, #273 ) ;
#273 = APPLICATION_CONTEXT ( 'automotive_design' ) ;
#274 = DIRECTION ( 'NONE',  ( 0.0000000000000000000, 0.0000000000000000000, 1.000000000000000000 ) ) ;
#275 = APPLICATION_CONTEXT ( 'automotive_design' ) ;
#276 = APPLICATION_PROTOCOL_DEFINITION ( 'draft international standard', 'automotive_design', 1998, #275 ) ;
#277 = DIRECTION ( 'NONE',  ( 1.000000000000000000, 0.0000000000000000000, 0.0000000000000000000 ) ) ;
#278 = PRODUCT_CONTEXT ( 'NONE', #275, 'mechanical' ) ;
#279 = CARTESIAN_POINT ( 'NONE',  ( 0.0000000000000000000, 0.0000000000000000000, 0.0000000000000000000 ) ) ;
#280 = PRODUCT ( 'Pin_12-7mm_9104-07086-02104', 'Pin_12-7mm_9104-07086-02104', '', ( #278 ) ) ;
ENDSEC;
END-ISO-10303-21;
